ISO-10303-21;
HEADER;
FILE_DESCRIPTION (( 'STEP AP203' ),
    '1' );
FILE_NAME ('BK7-NPBSC-25.4-450-650.STEP',
    '2020-12-22T02:09:08',
    ( '' ),
    ( '' ),
    'SwSTEP 2.0',
    'SolidWorks 2020',
    '' );
FILE_SCHEMA (( 'CONFIG_CONTROL_DESIGN' ));
ENDSEC;

DATA;
#1 = PERSON_AND_ORGANIZATION ( #174, #321 ) ;
#2 = EDGE_CURVE ( 'NONE', #294, #26, #125, .T. ) ;
#3 = ORIENTED_EDGE ( 'NONE', *, *, #150, .F. ) ;
#4 = UNCERTAINTY_MEASURE_WITH_UNIT (LENGTH_MEASURE( 1.000000000000000082E-05 ), #244, 'distance_accuracy_value', 'NONE');
#5 = CARTESIAN_POINT ( 'NONE',  ( 12.69999999999999929, 12.69999999999999929, 12.69999999999999929 ) ) ;
#6 = PRODUCT_RELATED_PRODUCT_CATEGORY ( 'detail', '', ( #298 ) ) ;
#7 = FACE_OUTER_BOUND ( 'NONE', #135, .T. ) ;
#8 = CARTESIAN_POINT ( 'NONE',  ( 12.69999999999999929, -12.69999999999999929, 12.69999999999999929 ) ) ;
#9 = CARTESIAN_POINT ( 'NONE',  ( -12.69999999999999574, -12.69999999999999396, 12.69999999999999929 ) ) ;
#10 = VECTOR ( 'NONE', #114, 1000.000000000000114 ) ;
#11 = CC_DESIGN_PERSON_AND_ORGANIZATION_ASSIGNMENT ( #189, #288, ( #144 ) ) ;
#12 = CARTESIAN_POINT ( 'NONE',  ( -12.70000000000000284, 12.70000000000000284, 12.69999999999999929 ) ) ;
#13 = PLANE ( 'NONE',  #33 ) ;
#14 = ADVANCED_FACE ( 'NONE', ( #7 ), #193, .T. ) ;
#15 = CARTESIAN_POINT ( 'NONE',  ( 12.69999999999999929, -12.69999999999999929, 12.69999999999999929 ) ) ;
#16 = DIRECTION ( 'NONE',  ( 0.7071067811865475727, 0.7071067811865475727, 0.000000000000000000 ) ) ;
#17 = APPROVAL_DATE_TIME ( #98, #80 ) ;
#18 = VECTOR ( 'NONE', #152, 999.9999999999998863 ) ;
#19 = EDGE_CURVE ( 'NONE', #267, #116, #199, .T. ) ;
#20 = APPROVAL_DATE_TIME ( #266, #60 ) ;
#21 = ORIENTED_EDGE ( 'NONE', *, *, #77, .F. ) ;
#22 = PERSON_AND_ORGANIZATION_ROLE ( 'creator' ) ;
#23 = EDGE_CURVE ( 'NONE', #53, #294, #83, .T. ) ;
#24 = APPROVAL_ROLE ( '' ) ;
#25 = APPROVAL_PERSON_ORGANIZATION ( #141, #80, #24 ) ;
#26 = VERTEX_POINT ( 'NONE', #130 ) ;
#27 = ORIENTED_EDGE ( 'NONE', *, *, #211, .F. ) ;
#28 = PLANE ( 'NONE',  #99 ) ;
#29 = DESIGN_CONTEXT ( 'detailed design', #309, 'design' ) ;
#30 = ORIENTED_EDGE ( 'NONE', *, *, #55, .T. ) ;
#31 = CARTESIAN_POINT ( 'NONE',  ( 12.69999999999999929, 12.69999999999999929, 12.69999999999999929 ) ) ;
#32 = EDGE_CURVE ( 'NONE', #315, #97, #235, .T. ) ;
#33 = AXIS2_PLACEMENT_3D ( 'NONE', #110, #206, #310 ) ;
#34 = DIRECTION ( 'NONE',  ( 1.000000000000000000, -2.220446049250312588E-16, 0.000000000000000000 ) ) ;
#35 = DIRECTION ( 'NONE',  ( -2.220446049250312588E-16, 1.000000000000000000, 0.000000000000000000 ) ) ;
#36 = EDGE_CURVE ( 'NONE', #97, #267, #303, .T. ) ;
#37 = CARTESIAN_POINT ( 'NONE',  ( 12.69999999999999929, 12.69999999999999929, -12.69999999999999929 ) ) ;
#38 = VECTOR ( 'NONE', #34, 1000.000000000000000 ) ;
#39 = CARTESIAN_POINT ( 'NONE',  ( 12.69999999999999574, 12.69999999999999574, 12.69999999999999929 ) ) ;
#40 = FACE_OUTER_BOUND ( 'NONE', #162, .T. ) ;
#41 = DIRECTION ( 'NONE',  ( 0.7071067811865475727, -0.7071067811865475727, 0.000000000000000000 ) ) ;
#42 = CALENDAR_DATE ( 2020, 22, 12 ) ;
#43 = DIRECTION ( 'NONE',  ( -0.000000000000000000, 0.000000000000000000, 1.000000000000000000 ) ) ;
#44 = ORIENTED_EDGE ( 'NONE', *, *, #36, .F. ) ;
#45 =( NAMED_UNIT ( * ) SI_UNIT ( $, .STERADIAN. ) SOLID_ANGLE_UNIT ( ) );
#46 = CC_DESIGN_APPROVAL ( #60, ( #144 ) ) ;
#47 = ORIENTED_EDGE ( 'NONE', *, *, #105, .T. ) ;
#48 = APPROVAL_DATE_TIME ( #100, #66 ) ;
#49 = SHAPE_DEFINITION_REPRESENTATION ( #56, #239 ) ;
#50 = ORIENTED_EDGE ( 'NONE', *, *, #128, .T. ) ;
#51 = PERSON_AND_ORGANIZATION_ROLE ( 'design_supplier' ) ;
#52 = VERTEX_POINT ( 'NONE', #8 ) ;
#53 = VERTEX_POINT ( 'NONE', #299 ) ;
#54 = FACE_OUTER_BOUND ( 'NONE', #192, .T. ) ;
#55 = EDGE_CURVE ( 'NONE', #272, #252, #103, .T. ) ;
#56 = PRODUCT_DEFINITION_SHAPE ( 'NONE', 'NONE',  #89 ) ;
#57 = CARTESIAN_POINT ( 'NONE',  ( 12.69999999999999929, 12.69999999999999929, 12.69999999999999929 ) ) ;
#58 = FACE_OUTER_BOUND ( 'NONE', #249, .T. ) ;
#59 = CARTESIAN_POINT ( 'NONE',  ( -12.69999999999999751, -12.69999999999999929, -12.69999999999999929 ) ) ;
#60 = APPROVAL ( #164, 'UNSPECIFIED' ) ;
#61 = DIRECTION ( 'NONE',  ( 1.000000000000000000, 0.000000000000000000, 0.000000000000000000 ) ) ;
#62 = DIRECTION ( 'NONE',  ( 0.000000000000000000, 0.000000000000000000, -1.000000000000000000 ) ) ;
#63 = APPROVAL_ROLE ( '' ) ;
#64 = VECTOR ( 'NONE', #106, 1000.000000000000000 ) ;
#65 = PLANE ( 'NONE',  #163 ) ;
#66 = APPROVAL ( #268, 'UNSPECIFIED' ) ;
#67 = ORIENTED_EDGE ( 'NONE', *, *, #32, .F. ) ;
#68 =( NAMED_UNIT ( * ) PLANE_ANGLE_UNIT ( ) SI_UNIT ( $, .RADIAN. ) );
#69 = PERSON_AND_ORGANIZATION ( #174, #321 ) ;
#70 = CC_DESIGN_APPROVAL ( #80, ( #89 ) ) ;
#71 = ORIENTED_EDGE ( 'NONE', *, *, #2, .F. ) ;
#72 = CALENDAR_DATE ( 2020, 22, 12 ) ;
#73 = ORIENTED_EDGE ( 'NONE', *, *, #275, .T. ) ;
#74 = VERTEX_POINT ( 'NONE', #57 ) ;
#75 = DIRECTION ( 'NONE',  ( 0.000000000000000000, 0.000000000000000000, 1.000000000000000000 ) ) ;
#76 = VECTOR ( 'NONE', #304, 1000.000000000000000 ) ;
#77 = EDGE_CURVE ( 'NONE', #315, #52, #79, .T. ) ;
#78 = DIRECTION ( 'NONE',  ( 1.000000000000000000, 0.000000000000000000, 0.000000000000000000 ) ) ;
#79 = LINE ( 'NONE', #224, #314 ) ;
#80 = APPROVAL ( #316, 'UNSPECIFIED' ) ;
#81 = DIRECTION ( 'NONE',  ( 0.000000000000000000, 0.000000000000000000, 1.000000000000000000 ) ) ;
#82 = LOCAL_TIME ( 10, 9, 8.000000000000000000, #247 ) ;
#83 = LINE ( 'NONE', #149, #212 ) ;
#84 = PLANE ( 'NONE',  #220 ) ;
#85 = CARTESIAN_POINT ( 'NONE',  ( 12.69999999999999929, 12.69999999999999929, 12.69999999999999929 ) ) ;
#86 = CARTESIAN_POINT ( 'NONE',  ( -12.69999999999999574, -12.69999999999999396, 12.69999999999999929 ) ) ;
#87 = DIRECTION ( 'NONE',  ( 1.000000000000000000, 0.000000000000000000, 0.000000000000000000 ) ) ;
#88 = PLANE ( 'NONE',  #228 ) ;
#89 = PRODUCT_DEFINITION ( 'UNKNOWN', '', #107, #29 ) ;
#90 = VECTOR ( 'NONE', #35, 1000.000000000000000 ) ;
#91 = PERSON_AND_ORGANIZATION_ROLE ( 'design_owner' ) ;
#92 = ORIENTED_EDGE ( 'NONE', *, *, #182, .T. ) ;
#93 = PERSON_AND_ORGANIZATION ( #174, #321 ) ;
#94 = ORIENTED_EDGE ( 'NONE', *, *, #55, .F. ) ;
#95 = ADVANCED_FACE ( 'NONE', ( #231 ), #127, .F. ) ;
#96 = COORDINATED_UNIVERSAL_TIME_OFFSET ( 8, 0, .AHEAD. ) ;
#97 = VERTEX_POINT ( 'NONE', #233 ) ;
#98 = DATE_AND_TIME ( #273, #82 ) ;
#99 = AXIS2_PLACEMENT_3D ( 'NONE', #5, #301, #277 ) ;
#100 = DATE_AND_TIME ( #209, #190 ) ;
#101 = ORIENTED_EDGE ( 'NONE', *, *, #179, .F. ) ;
#102 = EDGE_LOOP ( 'NONE', ( #170, #263, #50, #216 ) ) ;
#103 = LINE ( 'NONE', #9, #90 ) ;
#104 = LOCAL_TIME ( 10, 9, 8.000000000000000000, #291 ) ;
#105 = EDGE_CURVE ( 'NONE', #252, #243, #172, .T. ) ;
#106 = DIRECTION ( 'NONE',  ( 0.000000000000000000, 0.000000000000000000, -1.000000000000000000 ) ) ;
#107 = PRODUCT_DEFINITION_FORMATION_WITH_SPECIFIED_SOURCE ( 'ANY', '', #298, .NOT_KNOWN. ) ;
#108 = CARTESIAN_POINT ( 'NONE',  ( -12.69999999999999751, -12.69999999999999929, 12.69999999999999929 ) ) ;
#109 = DIRECTION ( 'NONE',  ( 0.000000000000000000, -0.000000000000000000, 1.000000000000000000 ) ) ;
#110 = CARTESIAN_POINT ( 'NONE',  ( 0.000000000000000000, 0.000000000000000000, -12.69999999999999929 ) ) ;
#111 = CARTESIAN_POINT ( 'NONE',  ( 12.69999999999999929, 12.69999999999999929, -12.69999999999999929 ) ) ;
#112 = APPLICATION_CONTEXT ( 'configuration controlled 3d designs of mechanical parts and assemblies' ) ;
#113 = CC_DESIGN_PERSON_AND_ORGANIZATION_ASSIGNMENT ( #93, #313, ( #107 ) ) ;
#114 = DIRECTION ( 'NONE',  ( -0.7071067811865474617, -0.7071067811865474617, 0.000000000000000000 ) ) ;
#115 = DIRECTION ( 'NONE',  ( 0.000000000000000000, 0.000000000000000000, 1.000000000000000000 ) ) ;
#116 = VERTEX_POINT ( 'NONE', #37 ) ;
#117 = DATE_AND_TIME ( #241, #104 ) ;
#118 = ORIENTED_EDGE ( 'NONE', *, *, #19, .T. ) ;
#119 = ADVANCED_FACE ( 'NONE', ( #58 ), #175, .F. ) ;
#120 = ORIENTED_EDGE ( 'NONE', *, *, #2, .T. ) ;
#121 = CARTESIAN_POINT ( 'NONE',  ( 0.000000000000000000, 0.000000000000000000, 0.000000000000000000 ) ) ;
#122 = VECTOR ( 'NONE', #177, 1000.000000000000000 ) ;
#123 = AXIS2_PLACEMENT_3D ( 'NONE', #108, #204, #109 ) ;
#124 = ORIENTED_EDGE ( 'NONE', *, *, #77, .T. ) ;
#125 = LINE ( 'NONE', #300, #234 ) ;
#126 = ORIENTED_EDGE ( 'NONE', *, *, #226, .T. ) ;
#127 = PLANE ( 'NONE',  #168 ) ;
#128 = EDGE_CURVE ( 'NONE', #243, #272, #131, .T. ) ;
#129 = CARTESIAN_POINT ( 'NONE',  ( 12.69999999999999574, 12.69999999999999574, 12.69999999999999929 ) ) ;
#130 = CARTESIAN_POINT ( 'NONE',  ( -12.70000000000000284, 12.70000000000000284, -12.69999999999999929 ) ) ;
#131 = LINE ( 'NONE', #129, #18 ) ;
#132 =( GEOMETRIC_REPRESENTATION_CONTEXT ( 3 ) GLOBAL_UNCERTAINTY_ASSIGNED_CONTEXT ( ( #4 ) ) GLOBAL_UNIT_ASSIGNED_CONTEXT ( ( #244, #68, #45 ) ) REPRESENTATION_CONTEXT ( 'NONE', 'WORKASPACE' ) );
#133 = DIRECTION ( 'NONE',  ( -0.7071067811865474617, -0.7071067811865474617, 0.000000000000000000 ) ) ;
#134 = FACE_OUTER_BOUND ( 'NONE', #274, .T. ) ;
#135 = EDGE_LOOP ( 'NONE', ( #191, #145, #94 ) ) ;
#136 = PERSON_AND_ORGANIZATION ( #174, #321 ) ;
#137 = CC_DESIGN_PERSON_AND_ORGANIZATION_ASSIGNMENT ( #320, #91, ( #298 ) ) ;
#138 = APPROVAL_PERSON_ORGANIZATION ( #69, #60, #63 ) ;
#139 = COORDINATED_UNIVERSAL_TIME_OFFSET ( 8, 0, .AHEAD. ) ;
#140 = EDGE_LOOP ( 'NONE', ( #71, #290, #30, #289 ) ) ;
#141 = PERSON_AND_ORGANIZATION ( #174, #321 ) ;
#142 = ORIENTED_EDGE ( 'NONE', *, *, #179, .T. ) ;
#143 = SECURITY_CLASSIFICATION_LEVEL ( 'unclassified' ) ;
#144 = SECURITY_CLASSIFICATION ( '', '', #143 ) ;
#145 = ORIENTED_EDGE ( 'NONE', *, *, #105, .F. ) ;
#146 = CARTESIAN_POINT ( 'NONE',  ( 12.69999999999999574, 12.69999999999999574, 12.69999999999999929 ) ) ;
#147 = ORIENTED_EDGE ( 'NONE', *, *, #23, .T. ) ;
#148 = PLANE ( 'NONE',  #280 ) ;
#149 = CARTESIAN_POINT ( 'NONE',  ( 12.69999999999999574, 12.69999999999999574, -12.69999999999999929 ) ) ;
#150 = EDGE_CURVE ( 'NONE', #26, #53, #281, .T. ) ;
#151 = MANIFOLD_SOLID_BREP ( '¾µÏ', #248 ) ;
#152 = DIRECTION ( 'NONE',  ( -0.7071067811865475727, -0.7071067811865475727, 0.000000000000000000 ) ) ;
#153 = CARTESIAN_POINT ( 'NONE',  ( -12.69999999999999574, -12.69999999999999396, 12.69999999999999929 ) ) ;
#154 = EDGE_CURVE ( 'NONE', #252, #26, #276, .T. ) ;
#155 = DIRECTION ( 'NONE',  ( 0.000000000000000000, 0.000000000000000000, -1.000000000000000000 ) ) ;
#156 = CARTESIAN_POINT ( 'NONE',  ( 12.69999999999999929, -12.69999999999999929, -12.69999999999999929 ) ) ;
#157 = DIRECTION ( 'NONE',  ( -0.7071067811865475727, 0.7071067811865475727, 0.000000000000000000 ) ) ;
#158 = AXIS2_PLACEMENT_3D ( 'NONE', #223, #75, #167 ) ;
#159 = VECTOR ( 'NONE', #62, 1000.000000000000000 ) ;
#160 = CARTESIAN_POINT ( 'NONE',  ( 12.69999999999999929, 12.69999999999999929, 12.69999999999999929 ) ) ;
#161 = DATE_TIME_ROLE ( 'creation_date' ) ;
#162 = EDGE_LOOP ( 'NONE', ( #147, #120, #213 ) ) ;
#163 = AXIS2_PLACEMENT_3D ( 'NONE', #261, #43, #61 ) ;
#164 = APPROVAL_STATUS ( 'not_yet_approved' ) ;
#165 = ADVANCED_FACE ( 'NONE', ( #202 ), #28, .F. ) ;
#166 = APPROVAL_ROLE ( '' ) ;
#167 = DIRECTION ( 'NONE',  ( -2.220446049250312588E-16, 1.000000000000000000, 0.000000000000000000 ) ) ;
#168 = AXIS2_PLACEMENT_3D ( 'NONE', #153, #253, #81 ) ;
#169 = DIRECTION ( 'NONE',  ( 1.000000000000000000, -2.220446049250312588E-16, 0.000000000000000000 ) ) ;
#170 = ORIENTED_EDGE ( 'NONE', *, *, #23, .F. ) ;
#171 = CARTESIAN_POINT ( 'NONE',  ( -12.70000000000000284, 12.70000000000000284, 12.69999999999999929 ) ) ;
#172 = LINE ( 'NONE', #255, #38 ) ;
#173 = ADVANCED_FACE ( 'NONE', ( #54 ), #148, .F. ) ;
#174 = PERSON ( 'UNSPECIFIED', 'UNSPECIFIED', 'UNSPECIFIED', ('UNSPECIFIED'), ('UNSPECIFIED'), ('UNSPECIFIED') ) ;
#175 = PLANE ( 'NONE',  #256 ) ;
#176 = VECTOR ( 'NONE', #258, 1000.000000000000000 ) ;
#177 = DIRECTION ( 'NONE',  ( -0.000000000000000000, -0.000000000000000000, -1.000000000000000000 ) ) ;
#178 = LINE ( 'NONE', #205, #265 ) ;
#179 = EDGE_CURVE ( 'NONE', #52, #74, #311, .T. ) ;
#180 = CARTESIAN_POINT ( 'NONE',  ( 0.000000000000000000, 0.000000000000000000, 12.69999999999999929 ) ) ;
#181 = LOCAL_TIME ( 10, 9, 8.000000000000000000, #139 ) ;
#182 = EDGE_CURVE ( 'NONE', #116, #97, #257, .T. ) ;
#183 = LINE ( 'NONE', #284, #159 ) ;
#184 = FACE_OUTER_BOUND ( 'NONE', #102, .T. ) ;
#185 = LINE ( 'NONE', #208, #10 ) ;
#186 = CARTESIAN_POINT ( 'NONE',  ( -12.69999999999999574, -12.69999999999999396, -12.69999999999999929 ) ) ;
#187 = CARTESIAN_POINT ( 'NONE',  ( -12.69999999999999751, -12.69999999999999929, 12.69999999999999929 ) ) ;
#188 = ORIENTED_EDGE ( 'NONE', *, *, #210, .F. ) ;
#189 = PERSON_AND_ORGANIZATION ( #174, #321 ) ;
#190 = LOCAL_TIME ( 10, 9, 8.000000000000000000, #96 ) ;
#191 = ORIENTED_EDGE ( 'NONE', *, *, #128, .F. ) ;
#192 = EDGE_LOOP ( 'NONE', ( #92, #67, #317, #293 ) ) ;
#193 = PLANE ( 'NONE',  #158 ) ;
#194 = DIRECTION ( 'NONE',  ( 0.000000000000000000, 0.000000000000000000, 1.000000000000000000 ) ) ;
#195 = ADVANCED_FACE ( 'NONE', ( #237 ), #84, .T. ) ;
#196 = ORIENTED_EDGE ( 'NONE', *, *, #182, .F. ) ;
#197 = CARTESIAN_POINT ( 'NONE',  ( 12.69999999999999574, 12.69999999999999574, -12.69999999999999929 ) ) ;
#198 = ORIENTED_EDGE ( 'NONE', *, *, #36, .T. ) ;
#199 = LINE ( 'NONE', #200, #76 ) ;
#200 = CARTESIAN_POINT ( 'NONE',  ( 12.69999999999999929, 12.69999999999999929, -12.69999999999999929 ) ) ;
#201 = CC_DESIGN_PERSON_AND_ORGANIZATION_ASSIGNMENT ( #271, #22, ( #89 ) ) ;
#202 = FACE_OUTER_BOUND ( 'NONE', #215, .T. ) ;
#203 = LOCAL_TIME ( 10, 9, 8.000000000000000000, #318 ) ;
#204 = DIRECTION ( 'NONE',  ( 0.000000000000000000, 1.000000000000000000, 0.000000000000000000 ) ) ;
#205 = CARTESIAN_POINT ( 'NONE',  ( -12.69999999999999574, -12.69999999999999396, 12.69999999999999929 ) ) ;
#206 = DIRECTION ( 'NONE',  ( 0.000000000000000000, 0.000000000000000000, 1.000000000000000000 ) ) ;
#207 = VECTOR ( 'NONE', #169, 1000.000000000000000 ) ;
#208 = CARTESIAN_POINT ( 'NONE',  ( 12.69999999999999929, 12.69999999999999929, 12.69999999999999929 ) ) ;
#209 = CALENDAR_DATE ( 2020, 22, 12 ) ;
#210 = EDGE_CURVE ( 'NONE', #74, #116, #286, .T. ) ;
#211 = EDGE_CURVE ( 'NONE', #52, #267, #283, .T. ) ;
#212 = VECTOR ( 'NONE', #307, 999.9999999999998863 ) ;
#213 = ORIENTED_EDGE ( 'NONE', *, *, #150, .T. ) ;
#214 = DATE_TIME_ROLE ( 'classification_date' ) ;
#215 = EDGE_LOOP ( 'NONE', ( #118, #188, #101, #297 ) ) ;
#216 = ORIENTED_EDGE ( 'NONE', *, *, #250, .T. ) ;
#217 = ADVANCED_FACE ( 'NONE', ( #184 ), #88, .F. ) ;
#218 = MECHANICAL_CONTEXT ( 'NONE', #112, 'mechanical' ) ;
#219 = CLOSED_SHELL ( 'NONE', ( #173, #232, #165, #195, #230 ) ) ;
#220 = AXIS2_PLACEMENT_3D ( 'NONE', #180, #282, #87 ) ;
#221 = DATE_AND_TIME ( #72, #203 ) ;
#222 = ORIENTED_EDGE ( 'NONE', *, *, #19, .F. ) ;
#223 = CARTESIAN_POINT ( 'NONE',  ( 0.000000000000000000, 0.000000000000000000, 12.69999999999999929 ) ) ;
#224 = CARTESIAN_POINT ( 'NONE',  ( -12.69999999999999751, -12.69999999999999929, 12.69999999999999929 ) ) ;
#225 = CC_DESIGN_PERSON_AND_ORGANIZATION_ASSIGNMENT ( #136, #51, ( #107 ) ) ;
#226 = EDGE_CURVE ( 'NONE', #74, #315, #185, .T. ) ;
#227 = DIRECTION ( 'NONE',  ( -2.220446049250312588E-16, 1.000000000000000000, 0.000000000000000000 ) ) ;
#228 = AXIS2_PLACEMENT_3D ( 'NONE', #285, #157, #16 ) ;
#229 = CARTESIAN_POINT ( 'NONE',  ( -12.69999999999999751, -12.69999999999999929, 12.69999999999999929 ) ) ;
#230 = ADVANCED_FACE ( 'NONE', ( #312 ), #65, .F. ) ;
#231 = FACE_OUTER_BOUND ( 'NONE', #140, .T. ) ;
#232 = ADVANCED_FACE ( 'NONE', ( #134 ), #240, .F. ) ;
#233 = CARTESIAN_POINT ( 'NONE',  ( -12.69999999999999751, -12.69999999999999929, -12.69999999999999929 ) ) ;
#234 = VECTOR ( 'NONE', #227, 1000.000000000000000 ) ;
#235 = LINE ( 'NONE', #229, #122 ) ;
#236 = DIRECTION ( 'NONE',  ( -0.000000000000000000, -0.000000000000000000, -1.000000000000000000 ) ) ;
#237 = FACE_OUTER_BOUND ( 'NONE', #245, .T. ) ;
#238 = DIRECTION ( 'NONE',  ( 0.7071067811865474617, 0.7071067811865474617, 0.000000000000000000 ) ) ;
#239 = ADVANCED_BREP_SHAPE_REPRESENTATION ( 'BK7-NPBSC-25.4-450-650', ( #259, #151, #260 ), #132 ) ;
#240 = PLANE ( 'NONE',  #123 ) ;
#241 = CALENDAR_DATE ( 2020, 22, 12 ) ;
#242 = VECTOR ( 'NONE', #236, 1000.000000000000000 ) ;
#243 = VERTEX_POINT ( 'NONE', #39 ) ;
#244 =( LENGTH_UNIT ( ) NAMED_UNIT ( * ) SI_UNIT ( .MILLI., .METRE. ) );
#245 = EDGE_LOOP ( 'NONE', ( #126, #124, #142 ) ) ;
#246 = CC_DESIGN_SECURITY_CLASSIFICATION ( #144, ( #107 ) ) ;
#247 = COORDINATED_UNIVERSAL_TIME_OFFSET ( 8, 0, .AHEAD. ) ;
#248 = CLOSED_SHELL ( 'NONE', ( #217, #95, #119, #14, #269 ) ) ;
#249 = EDGE_LOOP ( 'NONE', ( #3, #319, #47, #73 ) ) ;
#250 = EDGE_CURVE ( 'NONE', #272, #294, #178, .T. ) ;
#251 = DIRECTION ( 'NONE',  ( 1.000000000000000000, 0.000000000000000000, 0.000000000000000000 ) ) ;
#252 = VERTEX_POINT ( 'NONE', #12 ) ;
#253 = DIRECTION ( 'NONE',  ( 1.000000000000000000, -2.220446049250312588E-16, 0.000000000000000000 ) ) ;
#254 = VECTOR ( 'NONE', #308, 1000.000000000000000 ) ;
#255 = CARTESIAN_POINT ( 'NONE',  ( 12.69999999999999574, 12.69999999999999574, 12.69999999999999929 ) ) ;
#256 = AXIS2_PLACEMENT_3D ( 'NONE', #146, #279, #194 ) ;
#257 = LINE ( 'NONE', #111, #306 ) ;
#258 = DIRECTION ( 'NONE',  ( -0.000000000000000000, -0.000000000000000000, -1.000000000000000000 ) ) ;
#259 = MANIFOLD_SOLID_BREP ( 'Í¹Ì¨-À', #219 ) ;
#260 = AXIS2_PLACEMENT_3D ( 'NONE', #121, #115, #295 ) ;
#261 = CARTESIAN_POINT ( 'NONE',  ( 0.000000000000000000, 0.000000000000000000, -12.69999999999999929 ) ) ;
#262 = APPLICATION_PROTOCOL_DEFINITION ( 'international standard', 'config_control_design', 1994, #112 ) ;
#263 = ORIENTED_EDGE ( 'NONE', *, *, #275, .F. ) ;
#264 = APPLICATION_PROTOCOL_DEFINITION ( 'international standard', 'config_control_design', 1994, #309 ) ;
#265 = VECTOR ( 'NONE', #155, 1000.000000000000000 ) ;
#266 = DATE_AND_TIME ( #42, #181 ) ;
#267 = VERTEX_POINT ( 'NONE', #156 ) ;
#268 = APPROVAL_STATUS ( 'not_yet_approved' ) ;
#269 = ADVANCED_FACE ( 'NONE', ( #40 ), #13, .F. ) ;
#270 = EDGE_LOOP ( 'NONE', ( #196, #222, #44 ) ) ;
#271 = PERSON_AND_ORGANIZATION ( #174, #321 ) ;
#272 = VERTEX_POINT ( 'NONE', #86 ) ;
#273 = CALENDAR_DATE ( 2020, 22, 12 ) ;
#274 = EDGE_LOOP ( 'NONE', ( #198, #27, #21, #302 ) ) ;
#275 = EDGE_CURVE ( 'NONE', #243, #53, #183, .T. ) ;
#276 = LINE ( 'NONE', #171, #64 ) ;
#277 = DIRECTION ( 'NONE',  ( 0.000000000000000000, 0.000000000000000000, 1.000000000000000000 ) ) ;
#278 = CC_DESIGN_DATE_AND_TIME_ASSIGNMENT ( #117, #214, ( #144 ) ) ;
#279 = DIRECTION ( 'NONE',  ( 2.220446049250312588E-16, -1.000000000000000000, 0.000000000000000000 ) ) ;
#280 = AXIS2_PLACEMENT_3D ( 'NONE', #31, #41, #238 ) ;
#281 = LINE ( 'NONE', #197, #207 ) ;
#282 = DIRECTION ( 'NONE',  ( -0.000000000000000000, 0.000000000000000000, 1.000000000000000000 ) ) ;
#283 = LINE ( 'NONE', #15, #242 ) ;
#284 = CARTESIAN_POINT ( 'NONE',  ( 12.69999999999999574, 12.69999999999999574, 12.69999999999999929 ) ) ;
#285 = CARTESIAN_POINT ( 'NONE',  ( 12.69999999999999574, 12.69999999999999574, 12.69999999999999929 ) ) ;
#286 = LINE ( 'NONE', #85, #176 ) ;
#287 = CC_DESIGN_APPROVAL ( #66, ( #107 ) ) ;
#288 = PERSON_AND_ORGANIZATION_ROLE ( 'classification_officer' ) ;
#289 = ORIENTED_EDGE ( 'NONE', *, *, #154, .T. ) ;
#290 = ORIENTED_EDGE ( 'NONE', *, *, #250, .F. ) ;
#291 = COORDINATED_UNIVERSAL_TIME_OFFSET ( 8, 0, .AHEAD. ) ;
#292 = APPROVAL_PERSON_ORGANIZATION ( #1, #66, #166 ) ;
#293 = ORIENTED_EDGE ( 'NONE', *, *, #210, .T. ) ;
#294 = VERTEX_POINT ( 'NONE', #186 ) ;
#295 = DIRECTION ( 'NONE',  ( 1.000000000000000000, 0.000000000000000000, 0.000000000000000000 ) ) ;
#296 = CC_DESIGN_DATE_AND_TIME_ASSIGNMENT ( #221, #161, ( #89 ) ) ;
#297 = ORIENTED_EDGE ( 'NONE', *, *, #211, .T. ) ;
#298 = PRODUCT ( 'BK7-NPBSC-25.4-450-650', 'BK7-NPBSC-25.4-450-650', '', ( #218 ) ) ;
#299 = CARTESIAN_POINT ( 'NONE',  ( 12.69999999999999574, 12.69999999999999574, -12.69999999999999929 ) ) ;
#300 = CARTESIAN_POINT ( 'NONE',  ( -12.69999999999999574, -12.69999999999999396, -12.69999999999999929 ) ) ;
#301 = DIRECTION ( 'NONE',  ( -1.000000000000000000, 0.000000000000000000, 0.000000000000000000 ) ) ;
#302 = ORIENTED_EDGE ( 'NONE', *, *, #32, .T. ) ;
#303 = LINE ( 'NONE', #59, #305 ) ;
#304 = DIRECTION ( 'NONE',  ( -0.000000000000000000, 1.000000000000000000, -0.000000000000000000 ) ) ;
#305 = VECTOR ( 'NONE', #251, 1000.000000000000000 ) ;
#306 = VECTOR ( 'NONE', #133, 1000.000000000000114 ) ;
#307 = DIRECTION ( 'NONE',  ( -0.7071067811865475727, -0.7071067811865475727, 0.000000000000000000 ) ) ;
#308 = DIRECTION ( 'NONE',  ( -0.000000000000000000, 1.000000000000000000, -0.000000000000000000 ) ) ;
#309 = APPLICATION_CONTEXT ( 'configuration controlled 3d designs of mechanical parts and assemblies' ) ;
#310 = DIRECTION ( 'NONE',  ( -2.220446049250312588E-16, 1.000000000000000000, 0.000000000000000000 ) ) ;
#311 = LINE ( 'NONE', #160, #254 ) ;
#312 = FACE_OUTER_BOUND ( 'NONE', #270, .T. ) ;
#313 = PERSON_AND_ORGANIZATION_ROLE ( 'creator' ) ;
#314 = VECTOR ( 'NONE', #78, 1000.000000000000000 ) ;
#315 = VERTEX_POINT ( 'NONE', #187 ) ;
#316 = APPROVAL_STATUS ( 'not_yet_approved' ) ;
#317 = ORIENTED_EDGE ( 'NONE', *, *, #226, .F. ) ;
#318 = COORDINATED_UNIVERSAL_TIME_OFFSET ( 8, 0, .AHEAD. ) ;
#319 = ORIENTED_EDGE ( 'NONE', *, *, #154, .F. ) ;
#320 = PERSON_AND_ORGANIZATION ( #174, #321 ) ;
#321 = ORGANIZATION ( 'UNSPECIFIED', 'UNSPECIFIED', '' ) ;
ENDSEC;
END-ISO-10303-21;
